ISO-10303-21;
HEADER;
FILE_DESCRIPTION (( 'STEP AP203' ),
    '1' );
FILE_NAME ('QB-CTZHWP-20-1310-M.STEP',
    '2020-12-24T01:35:31',
    ( '' ),
    ( '' ),
    'SwSTEP 2.0',
    'SolidWorks 2020',
    '' );
FILE_SCHEMA (( 'CONFIG_CONTROL_DESIGN' ));
ENDSEC;

DATA;
#1 = AXIS2_PLACEMENT_3D ( 'NONE', #192, #137, #303 ) ;
#2 = ORIENTED_EDGE ( 'NONE', *, *, #294, .F. ) ;
#3 = APPROVAL ( #120, 'UNSPECIFIED' ) ;
#4 = ORIENTED_EDGE ( 'NONE', *, *, #317, .F. ) ;
#5 = VERTEX_POINT ( 'NONE', #273 ) ;
#6 = AXIS2_PLACEMENT_3D ( 'NONE', #209, #318, #103 ) ;
#7 = LINE ( 'NONE', #29, #238 ) ;
#8 = DIRECTION ( 'NONE',  ( -1.000000000000000000, -0.000000000000000000, -0.000000000000000000 ) ) ;
#9 = VECTOR ( 'NONE', #41, 1000.000000000000000 ) ;
#10 = EDGE_CURVE ( 'NONE', #161, #314, #205, .T. ) ;
#11 = CIRCLE ( 'NONE', #263, 10.00000000000000000 ) ;
#12 = SHAPE_DEFINITION_REPRESENTATION ( #203, #73 ) ;
#13 = EDGE_CURVE ( 'NONE', #145, #174, #114, .T. ) ;
#14 = CARTESIAN_POINT ( 'NONE',  ( 2.500000000000000888, 0.000000000000000000, 10.00000000000000000 ) ) ;
#15 = CC_DESIGN_DATE_AND_TIME_ASSIGNMENT ( #267, #320, ( #181 ) ) ;
#16 = CYLINDRICAL_SURFACE ( 'NONE', #237, 10.00000000000000000 ) ;
#17 = ORIENTED_EDGE ( 'NONE', *, *, #105, .T. ) ;
#18 = VERTEX_POINT ( 'NONE', #158 ) ;
#19 = DIRECTION ( 'NONE',  ( 0.000000000000000000, 0.000000000000000000, -1.000000000000000000 ) ) ;
#20 = CARTESIAN_POINT ( 'NONE',  ( 2.999999999999999112, 0.000000000000000000, 0.000000000000000000 ) ) ;
#21 = DIRECTION ( 'NONE',  ( -1.000000000000000000, -0.000000000000000000, -0.000000000000000000 ) ) ;
#22 = AXIS2_PLACEMENT_3D ( 'NONE', #108, #157, #270 ) ;
#23 =( NAMED_UNIT ( * ) SI_UNIT ( $, .STERADIAN. ) SOLID_ANGLE_UNIT ( ) );
#24 = DIRECTION ( 'NONE',  ( 0.000000000000000000, 0.000000000000000000, 1.000000000000000000 ) ) ;
#25 = CARTESIAN_POINT ( 'NONE',  ( 2.500000000000000888, 0.000000000000000000, 0.000000000000000000 ) ) ;
#26 = EDGE_LOOP ( 'NONE', ( #101, #313 ) ) ;
#27 = AXIS2_PLACEMENT_3D ( 'NONE', #25, #310, #42 ) ;
#28 = ORIENTED_EDGE ( 'NONE', *, *, #241, .T. ) ;
#29 = CARTESIAN_POINT ( 'NONE',  ( -1.614212418857619014, 1.224646799147353256E-15, -10.00000000000000000 ) ) ;
#30 = CARTESIAN_POINT ( 'NONE',  ( -2.500000000000000444, 10.00000000000000000, 0.000000000000000000 ) ) ;
#31 = APPROVAL_DATE_TIME ( #61, #242 ) ;
#32 = APPROVAL_DATE_TIME ( #292, #3 ) ;
#33 = DIRECTION ( 'NONE',  ( -0.000000000000000000, 0.000000000000000000, 1.000000000000000000 ) ) ;
#34 = PRODUCT_RELATED_PRODUCT_CATEGORY ( 'detail', '', ( #283 ) ) ;
#35 = CARTESIAN_POINT ( 'NONE',  ( 2.500000000000000888, 1.224646799147353256E-15, -10.00000000000000000 ) ) ;
#36 = ORIENTED_EDGE ( 'NONE', *, *, #159, .T. ) ;
#37 = CIRCLE ( 'NONE', #169, 10.00000000000000000 ) ;
#38 = AXIS2_PLACEMENT_3D ( 'NONE', #208, #8, #178 ) ;
#39 = EDGE_CURVE ( 'NONE', #111, #217, #327, .T. ) ;
#40 = CARTESIAN_POINT ( 'NONE',  ( -1.614212418857619014, 0.000000000000000000, 10.00000000000000000 ) ) ;
#41 = DIRECTION ( 'NONE',  ( -1.000000000000000000, -0.000000000000000000, -0.000000000000000000 ) ) ;
#42 = DIRECTION ( 'NONE',  ( 0.000000000000000000, 0.000000000000000000, 1.000000000000000000 ) ) ;
#43 = CARTESIAN_POINT ( 'NONE',  ( -1.614212418857619014, 0.000000000000000000, 10.00000000000000000 ) ) ;
#44 = DIRECTION ( 'NONE',  ( -1.000000000000000000, -0.000000000000000000, -0.000000000000000000 ) ) ;
#45 = DIRECTION ( 'NONE',  ( 0.000000000000000000, 0.000000000000000000, 1.000000000000000000 ) ) ;
#46 = AXIS2_PLACEMENT_3D ( 'NONE', #143, #334, #94 ) ;
#47 = PERSON_AND_ORGANIZATION_ROLE ( 'creator' ) ;
#48 = DATE_TIME_ROLE ( 'creation_date' ) ;
#49 = ORIENTED_EDGE ( 'NONE', *, *, #241, .F. ) ;
#50 = ORIENTED_EDGE ( 'NONE', *, *, #10, .T. ) ;
#51 = VECTOR ( 'NONE', #199, 1000.000000000000000 ) ;
#52 = ADVANCED_FACE ( 'NONE', ( #65, #88 ), #328, .F. ) ;
#53 = ORIENTED_EDGE ( 'NONE', *, *, #228, .T. ) ;
#54 = CC_DESIGN_PERSON_AND_ORGANIZATION_ASSIGNMENT ( #96, #47, ( #301 ) ) ;
#55 = DIRECTION ( 'NONE',  ( 1.000000000000000000, 0.000000000000000000, 0.000000000000000000 ) ) ;
#56 = DIRECTION ( 'NONE',  ( 0.000000000000000000, 0.000000000000000000, 1.000000000000000000 ) ) ;
#57 = VECTOR ( 'NONE', #255, 1000.000000000000000 ) ;
#58 = LOCAL_TIME ( 9, 35, 31.00000000000000000, #187 ) ;
#59 = CARTESIAN_POINT ( 'NONE',  ( -3.000000000000000444, 0.000000000000000000, 0.000000000000000000 ) ) ;
#60 = FACE_OUTER_BOUND ( 'NONE', #176, .T. ) ;
#61 = DATE_AND_TIME ( #295, #58 ) ;
#62 = DIRECTION ( 'NONE',  ( 0.000000000000000000, 0.000000000000000000, 1.000000000000000000 ) ) ;
#63 = ORIENTED_EDGE ( 'NONE', *, *, #81, .F. ) ;
#64 = CIRCLE ( 'NONE', #224, 10.00000000000000000 ) ;
#65 = FACE_BOUND ( 'NONE', #325, .T. ) ;
#66 = APPROVAL_ROLE ( '' ) ;
#67 = CYLINDRICAL_SURFACE ( 'NONE', #102, 10.00000000000000000 ) ;
#68 = APPROVAL_DATE_TIME ( #335, #107 ) ;
#69 = DIRECTION ( 'NONE',  ( -1.000000000000000000, -0.000000000000000000, -0.000000000000000000 ) ) ;
#70 = CIRCLE ( 'NONE', #214, 12.69999999999999929 ) ;
#71 = ORIENTED_EDGE ( 'NONE', *, *, #294, .T. ) ;
#72 = ORIENTED_EDGE ( 'NONE', *, *, #81, .T. ) ;
#73 = ADVANCED_BREP_SHAPE_REPRESENTATION ( 'QB-CTZHWP-20-1310-M', ( #236, #302 ), #170 ) ;
#74 = ORIENTED_EDGE ( 'NONE', *, *, #195, .F. ) ;
#75 = EDGE_CURVE ( 'NONE', #121, #284, #37, .T. ) ;
#76 = CARTESIAN_POINT ( 'NONE',  ( -2.500000000000000444, 0.000000000000000000, 10.00000000000000000 ) ) ;
#77 = DIRECTION ( 'NONE',  ( -1.000000000000000000, -0.000000000000000000, -0.000000000000000000 ) ) ;
#78 = APPLICATION_CONTEXT ( 'configuration controlled 3d designs of mechanical parts and assemblies' ) ;
#79 = CIRCLE ( 'NONE', #27, 10.00000000000000000 ) ;
#80 = APPLICATION_CONTEXT ( 'configuration controlled 3d designs of mechanical parts and assemblies' ) ;
#81 = EDGE_CURVE ( 'NONE', #161, #18, #115, .T. ) ;
#82 = CIRCLE ( 'NONE', #38, 10.00000000000000000 ) ;
#83 = DIRECTION ( 'NONE',  ( -1.000000000000000000, 0.000000000000000000, -0.000000000000000000 ) ) ;
#84 = PERSON_AND_ORGANIZATION ( #231, #206 ) ;
#85 = CARTESIAN_POINT ( 'NONE',  ( 3.000000000000000000, 0.000000000000000000, 0.000000000000000000 ) ) ;
#86 = DIRECTION ( 'NONE',  ( -1.000000000000000000, -0.000000000000000000, -0.000000000000000000 ) ) ;
#87 = CARTESIAN_POINT ( 'NONE',  ( -1.614212418857619014, 1.224646799147353256E-15, -10.00000000000000000 ) ) ;
#88 = FACE_OUTER_BOUND ( 'NONE', #123, .T. ) ;
#89 =( NAMED_UNIT ( * ) PLANE_ANGLE_UNIT ( ) SI_UNIT ( $, .RADIAN. ) );
#90 = AXIS2_PLACEMENT_3D ( 'NONE', #306, #171, #91 ) ;
#91 = DIRECTION ( 'NONE',  ( 0.000000000000000000, 0.000000000000000000, 1.000000000000000000 ) ) ;
#92 = EDGE_CURVE ( 'NONE', #284, #261, #276, .T. ) ;
#93 = APPLICATION_PROTOCOL_DEFINITION ( 'international standard', 'config_control_design', 1994, #78 ) ;
#94 = DIRECTION ( 'NONE',  ( 0.000000000000000000, 0.000000000000000000, 1.000000000000000000 ) ) ;
#95 = CC_DESIGN_PERSON_AND_ORGANIZATION_ASSIGNMENT ( #299, #323, ( #230 ) ) ;
#96 = PERSON_AND_ORGANIZATION ( #231, #206 ) ;
#97 = AXIS2_PLACEMENT_3D ( 'NONE', #20, #168, #140 ) ;
#98 = EDGE_LOOP ( 'NONE', ( #4, #135, #71, #207 ) ) ;
#99 = ORIENTED_EDGE ( 'NONE', *, *, #75, .T. ) ;
#100 = ORIENTED_EDGE ( 'NONE', *, *, #159, .F. ) ;
#101 = ORIENTED_EDGE ( 'NONE', *, *, #291, .F. ) ;
#102 = AXIS2_PLACEMENT_3D ( 'NONE', #279, #69, #45 ) ;
#103 = DIRECTION ( 'NONE',  ( 0.000000000000000000, 0.000000000000000000, 1.000000000000000000 ) ) ;
#104 = CARTESIAN_POINT ( 'NONE',  ( 2.999999999999999112, 0.000000000000000000, 0.000000000000000000 ) ) ;
#105 = EDGE_CURVE ( 'NONE', #314, #161, #70, .T. ) ;
#106 = APPROVAL_STATUS ( 'not_yet_approved' ) ;
#107 = APPROVAL ( #198, 'UNSPECIFIED' ) ;
#108 = CARTESIAN_POINT ( 'NONE',  ( -1.614212418857619014, 0.000000000000000000, 0.000000000000000000 ) ) ;
#109 = CALENDAR_DATE ( 2020, 24, 12 ) ;
#110 = FACE_OUTER_BOUND ( 'NONE', #173, .T. ) ;
#111 = VERTEX_POINT ( 'NONE', #139 ) ;
#112 = DIRECTION ( 'NONE',  ( 1.000000000000000000, 0.000000000000000000, 0.000000000000000000 ) ) ;
#113 = EDGE_CURVE ( 'NONE', #18, #5, #309, .T. ) ;
#114 = LINE ( 'NONE', #40, #254 ) ;
#115 = LINE ( 'NONE', #274, #193 ) ;
#116 = DIRECTION ( 'NONE',  ( 0.000000000000000000, 0.000000000000000000, 1.000000000000000000 ) ) ;
#117 = APPROVAL_ROLE ( '' ) ;
#118 = CARTESIAN_POINT ( 'NONE',  ( -2.500000000000000444, 1.224646799147353256E-15, -10.00000000000000000 ) ) ;
#119 = CC_DESIGN_PERSON_AND_ORGANIZATION_ASSIGNMENT ( #84, #321, ( #181 ) ) ;
#120 = APPROVAL_STATUS ( 'not_yet_approved' ) ;
#121 = VERTEX_POINT ( 'NONE', #118 ) ;
#122 = EDGE_CURVE ( 'NONE', #314, #5, #225, .T. ) ;
#123 = EDGE_LOOP ( 'NONE', ( #188, #36 ) ) ;
#124 = ORIENTED_EDGE ( 'NONE', *, *, #317, .T. ) ;
#125 = FACE_OUTER_BOUND ( 'NONE', #311, .T. ) ;
#126 = CC_DESIGN_SECURITY_CLASSIFICATION ( #181, ( #230 ) ) ;
#127 = DIRECTION ( 'NONE',  ( 0.000000000000000000, 0.000000000000000000, -1.000000000000000000 ) ) ;
#128 = ADVANCED_FACE ( 'NONE', ( #167 ), #331, .T. ) ;
#129 = AXIS2_PLACEMENT_3D ( 'NONE', #218, #83, #33 ) ;
#130 = LOCAL_TIME ( 9, 35, 31.00000000000000000, #275 ) ;
#131 = PERSON_AND_ORGANIZATION_ROLE ( 'creator' ) ;
#132 = CARTESIAN_POINT ( 'NONE',  ( -1.614212418857619014, 0.000000000000000000, 0.000000000000000000 ) ) ;
#133 = FACE_OUTER_BOUND ( 'NONE', #312, .T. ) ;
#134 = CIRCLE ( 'NONE', #97, 10.00000000000000000 ) ;
#135 = ORIENTED_EDGE ( 'NONE', *, *, #39, .T. ) ;
#136 = ORIENTED_EDGE ( 'NONE', *, *, #265, .T. ) ;
#137 = DIRECTION ( 'NONE',  ( 1.000000000000000000, 0.000000000000000000, 0.000000000000000000 ) ) ;
#138 =( LENGTH_UNIT ( ) NAMED_UNIT ( * ) SI_UNIT ( .MILLI., .METRE. ) );
#139 = CARTESIAN_POINT ( 'NONE',  ( 2.999999999999999112, 1.224646799147353256E-15, -10.00000000000000000 ) ) ;
#140 = DIRECTION ( 'NONE',  ( 0.000000000000000000, 0.000000000000000000, 1.000000000000000000 ) ) ;
#141 = LOCAL_TIME ( 9, 35, 31.00000000000000000, #307 ) ;
#142 = AXIS2_PLACEMENT_3D ( 'NONE', #262, #179, #153 ) ;
#143 = CARTESIAN_POINT ( 'NONE',  ( -3.000000000000000000, 0.000000000000000000, 0.000000000000000000 ) ) ;
#144 = COORDINATED_UNIVERSAL_TIME_OFFSET ( 8, 0, .AHEAD. ) ;
#145 = VERTEX_POINT ( 'NONE', #308 ) ;
#146 = ORIENTED_EDGE ( 'NONE', *, *, #288, .F. ) ;
#147 = AXIS2_PLACEMENT_3D ( 'NONE', #252, #112, #221 ) ;
#148 = ORIENTED_EDGE ( 'NONE', *, *, #288, .T. ) ;
#149 = DESIGN_CONTEXT ( 'detailed design', #78, 'design' ) ;
#150 = PLANE ( 'NONE',  #160 ) ;
#151 = ADVANCED_FACE ( 'NONE', ( #227 ), #67, .F. ) ;
#152 = AXIS2_PLACEMENT_3D ( 'NONE', #253, #21, #116 ) ;
#153 = DIRECTION ( 'NONE',  ( 0.000000000000000000, 0.000000000000000000, 1.000000000000000000 ) ) ;
#154 = APPROVAL_PERSON_ORGANIZATION ( #183, #242, #245 ) ;
#155 = PERSON_AND_ORGANIZATION ( #231, #206 ) ;
#156 = DIRECTION ( 'NONE',  ( -1.000000000000000000, -0.000000000000000000, -0.000000000000000000 ) ) ;
#157 = DIRECTION ( 'NONE',  ( -1.000000000000000000, -0.000000000000000000, -0.000000000000000000 ) ) ;
#158 = CARTESIAN_POINT ( 'NONE',  ( -3.000000000000000000, 0.000000000000000000, 12.69999999999999929 ) ) ;
#159 = EDGE_CURVE ( 'NONE', #5, #18, #184, .T. ) ;
#160 = AXIS2_PLACEMENT_3D ( 'NONE', #30, #55, #127 ) ;
#161 = VERTEX_POINT ( 'NONE', #164 ) ;
#162 = CARTESIAN_POINT ( 'NONE',  ( -2.500000000000000444, 0.000000000000000000, 0.000000000000000000 ) ) ;
#163 = DIRECTION ( 'NONE',  ( -1.000000000000000000, -0.000000000000000000, -0.000000000000000000 ) ) ;
#164 = CARTESIAN_POINT ( 'NONE',  ( 3.000000000000000000, 0.000000000000000000, 12.69999999999999929 ) ) ;
#165 = CC_DESIGN_PERSON_AND_ORGANIZATION_ASSIGNMENT ( #305, #166, ( #283 ) ) ;
#166 = PERSON_AND_ORGANIZATION_ROLE ( 'design_owner' ) ;
#167 = FACE_OUTER_BOUND ( 'NONE', #232, .T. ) ;
#168 = DIRECTION ( 'NONE',  ( -1.000000000000000000, -0.000000000000000000, -0.000000000000000000 ) ) ;
#169 = AXIS2_PLACEMENT_3D ( 'NONE', #162, #251, #19 ) ;
#170 =( GEOMETRIC_REPRESENTATION_CONTEXT ( 3 ) GLOBAL_UNCERTAINTY_ASSIGNED_CONTEXT ( ( #322 ) ) GLOBAL_UNIT_ASSIGNED_CONTEXT ( ( #138, #89, #23 ) ) REPRESENTATION_CONTEXT ( 'NONE', 'WORKASPACE' ) );
#171 = DIRECTION ( 'NONE',  ( -1.000000000000000000, -0.000000000000000000, -0.000000000000000000 ) ) ;
#172 = DIRECTION ( 'NONE',  ( 0.000000000000000000, 0.000000000000000000, 1.000000000000000000 ) ) ;
#173 = EDGE_LOOP ( 'NONE', ( #233, #2 ) ) ;
#174 = VERTEX_POINT ( 'NONE', #14 ) ;
#175 = CC_DESIGN_APPROVAL ( #242, ( #181 ) ) ;
#176 = EDGE_LOOP ( 'NONE', ( #300, #146, #286, #53 ) ) ;
#177 = ORIENTED_EDGE ( 'NONE', *, *, #291, .T. ) ;
#178 = DIRECTION ( 'NONE',  ( 0.000000000000000000, 0.000000000000000000, 1.000000000000000000 ) ) ;
#179 = DIRECTION ( 'NONE',  ( -1.000000000000000000, -0.000000000000000000, -0.000000000000000000 ) ) ;
#180 = DIRECTION ( 'NONE',  ( -1.000000000000000000, -0.000000000000000000, -0.000000000000000000 ) ) ;
#181 = SECURITY_CLASSIFICATION ( '', '', #212 ) ;
#182 = ADVANCED_FACE ( 'NONE', ( #185, #269 ), #246, .F. ) ;
#183 = PERSON_AND_ORGANIZATION ( #231, #206 ) ;
#184 = CIRCLE ( 'NONE', #46, 12.69999999999999929 ) ;
#185 = FACE_OUTER_BOUND ( 'NONE', #258, .T. ) ;
#186 = PLANE ( 'NONE',  #129 ) ;
#187 = COORDINATED_UNIVERSAL_TIME_OFFSET ( 8, 0, .AHEAD. ) ;
#188 = ORIENTED_EDGE ( 'NONE', *, *, #113, .T. ) ;
#189 = FACE_OUTER_BOUND ( 'NONE', #98, .T. ) ;
#190 = ORIENTED_EDGE ( 'NONE', *, *, #113, .F. ) ;
#191 = ADVANCED_FACE ( 'NONE', ( #110 ), #186, .F. ) ;
#192 = CARTESIAN_POINT ( 'NONE',  ( -3.000000000000000000, 10.00000000000000000, 0.000000000000000000 ) ) ;
#193 = VECTOR ( 'NONE', #163, 1000.000000000000000 ) ;
#194 = APPROVAL_PERSON_ORGANIZATION ( #257, #3, #66 ) ;
#195 = EDGE_CURVE ( 'NONE', #261, #316, #315, .T. ) ;
#196 = DIRECTION ( 'NONE',  ( 1.000000000000000000, 0.000000000000000000, 0.000000000000000000 ) ) ;
#197 = CARTESIAN_POINT ( 'NONE',  ( -1.614212418857619014, 1.555301434917138433E-15, -12.69999999999999929 ) ) ;
#198 = APPROVAL_STATUS ( 'not_yet_approved' ) ;
#199 = DIRECTION ( 'NONE',  ( -1.000000000000000000, -0.000000000000000000, -0.000000000000000000 ) ) ;
#200 = CALENDAR_DATE ( 2020, 24, 12 ) ;
#201 = ORIENTED_EDGE ( 'NONE', *, *, #92, .F. ) ;
#202 = ORIENTED_EDGE ( 'NONE', *, *, #195, .T. ) ;
#203 = PRODUCT_DEFINITION_SHAPE ( 'NONE', 'NONE',  #301 ) ;
#204 = ORIENTED_EDGE ( 'NONE', *, *, #122, .F. ) ;
#205 = CIRCLE ( 'NONE', #266, 12.69999999999999929 ) ;
#206 = ORGANIZATION ( 'UNSPECIFIED', 'UNSPECIFIED', '' ) ;
#207 = ORIENTED_EDGE ( 'NONE', *, *, #13, .F. ) ;
#208 = CARTESIAN_POINT ( 'NONE',  ( -3.000000000000000444, 0.000000000000000000, 0.000000000000000000 ) ) ;
#209 = CARTESIAN_POINT ( 'NONE',  ( -1.614212418857619014, 0.000000000000000000, 0.000000000000000000 ) ) ;
#210 = CC_DESIGN_APPROVAL ( #107, ( #301 ) ) ;
#211 = CALENDAR_DATE ( 2020, 24, 12 ) ;
#212 = SECURITY_CLASSIFICATION_LEVEL ( 'unclassified' ) ;
#213 = ADVANCED_FACE ( 'NONE', ( #133 ), #16, .F. ) ;
#214 = AXIS2_PLACEMENT_3D ( 'NONE', #277, #44, #24 ) ;
#215 = ADVANCED_FACE ( 'NONE', ( #60 ), #324, .F. ) ;
#216 = CARTESIAN_POINT ( 'NONE',  ( 2.999999999999999112, 12.69999999999999929, 0.000000000000000000 ) ) ;
#217 = VERTEX_POINT ( 'NONE', #35 ) ;
#218 = CARTESIAN_POINT ( 'NONE',  ( 2.500000000000000444, 10.00000000000000000, 0.000000000000000000 ) ) ;
#219 = DIRECTION ( 'NONE',  ( -1.000000000000000000, -0.000000000000000000, -0.000000000000000000 ) ) ;
#220 = ADVANCED_FACE ( 'NONE', ( #189 ), #289, .F. ) ;
#221 = DIRECTION ( 'NONE',  ( 0.000000000000000000, 0.000000000000000000, -1.000000000000000000 ) ) ;
#222 = EDGE_LOOP ( 'NONE', ( #49, #99, #248, #202 ) ) ;
#223 = AXIS2_PLACEMENT_3D ( 'NONE', #59, #156, #297 ) ;
#224 = AXIS2_PLACEMENT_3D ( 'NONE', #264, #287, #56 ) ;
#225 = LINE ( 'NONE', #197, #51 ) ;
#226 = CARTESIAN_POINT ( 'NONE',  ( 0.000000000000000000, 0.000000000000000000, 0.000000000000000000 ) ) ;
#227 = FACE_OUTER_BOUND ( 'NONE', #222, .T. ) ;
#228 = EDGE_CURVE ( 'NONE', #174, #217, #64, .T. ) ;
#229 = APPLICATION_PROTOCOL_DEFINITION ( 'international standard', 'config_control_design', 1994, #80 ) ;
#230 = PRODUCT_DEFINITION_FORMATION_WITH_SPECIFIED_SOURCE ( 'ANY', '', #283, .NOT_KNOWN. ) ;
#231 = PERSON ( 'UNSPECIFIED', 'UNSPECIFIED', 'UNSPECIFIED', ('UNSPECIFIED'), ('UNSPECIFIED'), ('UNSPECIFIED') ) ;
#232 = EDGE_LOOP ( 'NONE', ( #50, #234, #190, #63 ) ) ;
#233 = ORIENTED_EDGE ( 'NONE', *, *, #228, .F. ) ;
#234 = ORIENTED_EDGE ( 'NONE', *, *, #122, .T. ) ;
#235 = ADVANCED_FACE ( 'NONE', ( #239 ), #150, .F. ) ;
#236 = MANIFOLD_SOLID_BREP ( 'Ðý×', #290 ) ;
#237 = AXIS2_PLACEMENT_3D ( 'NONE', #132, #86, #298 ) ;
#238 = VECTOR ( 'NONE', #77, 1000.000000000000000 ) ;
#239 = FACE_OUTER_BOUND ( 'NONE', #26, .T. ) ;
#240 = CYLINDRICAL_SURFACE ( 'NONE', #6, 12.69999999999999929 ) ;
#241 = EDGE_CURVE ( 'NONE', #121, #316, #7, .T. ) ;
#242 = APPROVAL ( #106, 'UNSPECIFIED' ) ;
#243 = AXIS2_PLACEMENT_3D ( 'NONE', #216, #326, #247 ) ;
#244 = APPROVAL_PERSON_ORGANIZATION ( #278, #107, #117 ) ;
#245 = APPROVAL_ROLE ( '' ) ;
#246 = PLANE ( 'NONE',  #243 ) ;
#247 = DIRECTION ( 'NONE',  ( -0.000000000000000000, 0.000000000000000000, 1.000000000000000000 ) ) ;
#248 = ORIENTED_EDGE ( 'NONE', *, *, #92, .T. ) ;
#249 = CARTESIAN_POINT ( 'NONE',  ( 3.000000000000000000, 1.555301434917138433E-15, -12.69999999999999929 ) ) ;
#250 = DIRECTION ( 'NONE',  ( -1.000000000000000000, -0.000000000000000000, -0.000000000000000000 ) ) ;
#251 = DIRECTION ( 'NONE',  ( 1.000000000000000000, 0.000000000000000000, 0.000000000000000000 ) ) ;
#252 = CARTESIAN_POINT ( 'NONE',  ( -2.500000000000000444, 0.000000000000000000, 0.000000000000000000 ) ) ;
#253 = CARTESIAN_POINT ( 'NONE',  ( -3.000000000000000000, 0.000000000000000000, 0.000000000000000000 ) ) ;
#254 = VECTOR ( 'NONE', #250, 1000.000000000000000 ) ;
#255 = DIRECTION ( 'NONE',  ( -1.000000000000000000, -0.000000000000000000, -0.000000000000000000 ) ) ;
#256 = ADVANCED_FACE ( 'NONE', ( #125 ), #240, .T. ) ;
#257 = PERSON_AND_ORGANIZATION ( #231, #206 ) ;
#258 = EDGE_LOOP ( 'NONE', ( #282, #271 ) ) ;
#259 = LOCAL_TIME ( 9, 35, 31.00000000000000000, #144 ) ;
#260 = ORIENTED_EDGE ( 'NONE', *, *, #265, .F. ) ;
#261 = VERTEX_POINT ( 'NONE', #319 ) ;
#262 = CARTESIAN_POINT ( 'NONE',  ( -1.614212418857619014, 0.000000000000000000, 0.000000000000000000 ) ) ;
#263 = AXIS2_PLACEMENT_3D ( 'NONE', #104, #180, #172 ) ;
#264 = CARTESIAN_POINT ( 'NONE',  ( 2.500000000000000888, 0.000000000000000000, 0.000000000000000000 ) ) ;
#265 = EDGE_CURVE ( 'NONE', #316, #261, #82, .T. ) ;
#266 = AXIS2_PLACEMENT_3D ( 'NONE', #85, #219, #62 ) ;
#267 = DATE_AND_TIME ( #109, #272 ) ;
#268 = CC_DESIGN_PERSON_AND_ORGANIZATION_ASSIGNMENT ( #155, #131, ( #230 ) ) ;
#269 = FACE_BOUND ( 'NONE', #285, .T. ) ;
#270 = DIRECTION ( 'NONE',  ( 0.000000000000000000, 0.000000000000000000, 1.000000000000000000 ) ) ;
#271 = ORIENTED_EDGE ( 'NONE', *, *, #105, .F. ) ;
#272 = LOCAL_TIME ( 9, 35, 31.00000000000000000, #293 ) ;
#273 = CARTESIAN_POINT ( 'NONE',  ( -3.000000000000000000, 1.555301434917138433E-15, -12.69999999999999929 ) ) ;
#274 = CARTESIAN_POINT ( 'NONE',  ( -1.614212418857619014, 0.000000000000000000, 12.69999999999999929 ) ) ;
#275 = COORDINATED_UNIVERSAL_TIME_OFFSET ( 8, 0, .AHEAD. ) ;
#276 = LINE ( 'NONE', #43, #57 ) ;
#277 = CARTESIAN_POINT ( 'NONE',  ( 3.000000000000000000, 0.000000000000000000, 0.000000000000000000 ) ) ;
#278 = PERSON_AND_ORGANIZATION ( #231, #206 ) ;
#279 = CARTESIAN_POINT ( 'NONE',  ( -1.614212418857619014, 0.000000000000000000, 0.000000000000000000 ) ) ;
#280 = CIRCLE ( 'NONE', #147, 10.00000000000000000 ) ;
#281 = DATE_AND_TIME ( #200, #259 ) ;
#282 = ORIENTED_EDGE ( 'NONE', *, *, #10, .F. ) ;
#283 = PRODUCT ( 'QB-CTZHWP-20-1310-M', 'QB-CTZHWP-20-1310-M', '', ( #330 ) ) ;
#284 = VERTEX_POINT ( 'NONE', #76 ) ;
#285 = EDGE_LOOP ( 'NONE', ( #148, #124 ) ) ;
#286 = ORIENTED_EDGE ( 'NONE', *, *, #13, .T. ) ;
#287 = DIRECTION ( 'NONE',  ( -1.000000000000000000, -0.000000000000000000, -0.000000000000000000 ) ) ;
#288 = EDGE_CURVE ( 'NONE', #145, #111, #11, .T. ) ;
#289 = CYLINDRICAL_SURFACE ( 'NONE', #142, 10.00000000000000000 ) ;
#290 = CLOSED_SHELL ( 'NONE', ( #128, #213, #220, #191, #215, #151, #52, #256, #182, #235 ) ) ;
#291 = EDGE_CURVE ( 'NONE', #284, #121, #280, .T. ) ;
#292 = DATE_AND_TIME ( #211, #130 ) ;
#293 = COORDINATED_UNIVERSAL_TIME_OFFSET ( 8, 0, .AHEAD. ) ;
#294 = EDGE_CURVE ( 'NONE', #217, #174, #79, .T. ) ;
#295 = CALENDAR_DATE ( 2020, 24, 12 ) ;
#296 = CC_DESIGN_APPROVAL ( #3, ( #230 ) ) ;
#297 = DIRECTION ( 'NONE',  ( 0.000000000000000000, 0.000000000000000000, 1.000000000000000000 ) ) ;
#298 = DIRECTION ( 'NONE',  ( 0.000000000000000000, 0.000000000000000000, 1.000000000000000000 ) ) ;
#299 = PERSON_AND_ORGANIZATION ( #231, #206 ) ;
#300 = ORIENTED_EDGE ( 'NONE', *, *, #39, .F. ) ;
#301 = PRODUCT_DEFINITION ( 'UNKNOWN', '', #230, #149 ) ;
#302 = AXIS2_PLACEMENT_3D ( 'NONE', #226, #333, #196 ) ;
#303 = DIRECTION ( 'NONE',  ( 0.000000000000000000, 0.000000000000000000, -1.000000000000000000 ) ) ;
#304 = CALENDAR_DATE ( 2020, 24, 12 ) ;
#305 = PERSON_AND_ORGANIZATION ( #231, #206 ) ;
#306 = CARTESIAN_POINT ( 'NONE',  ( -1.614212418857619014, 0.000000000000000000, 0.000000000000000000 ) ) ;
#307 = COORDINATED_UNIVERSAL_TIME_OFFSET ( 8, 0, .AHEAD. ) ;
#308 = CARTESIAN_POINT ( 'NONE',  ( 2.999999999999999112, 0.000000000000000000, 10.00000000000000000 ) ) ;
#309 = CIRCLE ( 'NONE', #152, 12.69999999999999929 ) ;
#310 = DIRECTION ( 'NONE',  ( -1.000000000000000000, -0.000000000000000000, -0.000000000000000000 ) ) ;
#311 = EDGE_LOOP ( 'NONE', ( #204, #17, #72, #100 ) ) ;
#312 = EDGE_LOOP ( 'NONE', ( #177, #28, #136, #201 ) ) ;
#313 = ORIENTED_EDGE ( 'NONE', *, *, #75, .F. ) ;
#314 = VERTEX_POINT ( 'NONE', #249 ) ;
#315 = CIRCLE ( 'NONE', #223, 10.00000000000000000 ) ;
#316 = VERTEX_POINT ( 'NONE', #329 ) ;
#317 = EDGE_CURVE ( 'NONE', #111, #145, #134, .T. ) ;
#318 = DIRECTION ( 'NONE',  ( -1.000000000000000000, -0.000000000000000000, -0.000000000000000000 ) ) ;
#319 = CARTESIAN_POINT ( 'NONE',  ( -3.000000000000000444, 0.000000000000000000, 10.00000000000000000 ) ) ;
#320 = DATE_TIME_ROLE ( 'classification_date' ) ;
#321 = PERSON_AND_ORGANIZATION_ROLE ( 'classification_officer' ) ;
#322 = UNCERTAINTY_MEASURE_WITH_UNIT (LENGTH_MEASURE( 1.000000000000000082E-05 ), #138, 'distance_accuracy_value', 'NONE');
#323 = PERSON_AND_ORGANIZATION_ROLE ( 'design_supplier' ) ;
#324 = CYLINDRICAL_SURFACE ( 'NONE', #22, 10.00000000000000000 ) ;
#325 = EDGE_LOOP ( 'NONE', ( #74, #260 ) ) ;
#326 = DIRECTION ( 'NONE',  ( -1.000000000000000000, 0.000000000000000000, -0.000000000000000000 ) ) ;
#327 = LINE ( 'NONE', #87, #9 ) ;
#328 = PLANE ( 'NONE',  #1 ) ;
#329 = CARTESIAN_POINT ( 'NONE',  ( -3.000000000000000444, 1.224646799147353256E-15, -10.00000000000000000 ) ) ;
#330 = MECHANICAL_CONTEXT ( 'NONE', #80, 'mechanical' ) ;
#331 = CYLINDRICAL_SURFACE ( 'NONE', #90, 12.69999999999999929 ) ;
#332 = CC_DESIGN_DATE_AND_TIME_ASSIGNMENT ( #281, #48, ( #301 ) ) ;
#333 = DIRECTION ( 'NONE',  ( 0.000000000000000000, 0.000000000000000000, 1.000000000000000000 ) ) ;
#334 = DIRECTION ( 'NONE',  ( -1.000000000000000000, -0.000000000000000000, -0.000000000000000000 ) ) ;
#335 = DATE_AND_TIME ( #304, #141 ) ;
ENDSEC;
END-ISO-10303-21;
